ISO-10303-21;
HEADER;
FILE_DESCRIPTION (( 'STEP AP214' ),
    '1' );
FILE_NAME ('5B0008',
    '2019-02-01T12:50:23',
    ( '' ),
    ('JUGARD+KÜNSTNER GmbH'),
    'SwSTEP 2.0',
    'SolidWorks 2017',
    '' );
FILE_SCHEMA (( 'AUTOMOTIVE_DESIGN' ));
ENDSEC;

DATA;
#1 = DIRECTION ( 'NONE',  ( 0.0000000000000000000, -0.0000000000000000000, 1.000000000000000000 ) ) ;
#2 = SURFACE_SIDE_STYLE ('',( #98 ) ) ;
#3 = ADVANCED_BREP_SHAPE_REPRESENTATION ( '5B0008_CNAJF00', ( #66, #193 ), #158 ) ;
#4 = AXIS2_PLACEMENT_3D ( 'NONE', #110, #74, #91 ) ;
#5 =( GEOMETRIC_REPRESENTATION_CONTEXT ( 3 ) GLOBAL_UNCERTAINTY_ASSIGNED_CONTEXT ( ( #145 ) ) GLOBAL_UNIT_ASSIGNED_CONTEXT ( ( #128, #157, #113 ) ) REPRESENTATION_CONTEXT ( 'NONE', 'WORKASPACE' ) );
#6 =( LENGTH_UNIT ( ) NAMED_UNIT ( * ) SI_UNIT ( .MILLI., .METRE. ) );
#7 = VECTOR ( 'NONE', #16, 1000.000000000000000 ) ;
#8 = ORIENTED_EDGE ( 'NONE', *, *, #25, .F. ) ;
#9 = APPLICATION_PROTOCOL_DEFINITION ( 'draft international standard', 'automotive_design', 1998, #21 ) ;
#10 = CLOSED_SHELL ( 'NONE', ( #149, #70, #85, #28, #106, #33 ) ) ;
#11 = ORIENTED_EDGE ( 'NONE', *, *, #55, .T. ) ;
#12 = FACE_OUTER_BOUND ( 'NONE', #44, .T. ) ;
#13 = ORIENTED_EDGE ( 'NONE', *, *, #119, .F. ) ;
#14 = AXIS2_PLACEMENT_3D ( 'NONE', #76, #19, #49 ) ;
#15 = PRODUCT_RELATED_PRODUCT_CATEGORY ( 'part', '', ( #95 ) ) ;
#16 = DIRECTION ( 'NONE',  ( -0.0000000000000000000, -0.0000000000000000000, 1.000000000000000000 ) ) ;
#17 = VECTOR ( 'NONE', #62, 1000.000000000000000 ) ;
#18 = PLANE ( 'NONE',  #166 ) ;
#19 = DIRECTION ( 'NONE',  ( 0.0000000000000000000, -1.000000000000000000, 0.0000000000000000000 ) ) ;
#20 = LINE ( 'NONE', #185, #54 ) ;
#21 = APPLICATION_CONTEXT ( 'automotive_design' ) ;
#22 = SURFACE_STYLE_FILL_AREA ( #97 ) ;
#23 = UNCERTAINTY_MEASURE_WITH_UNIT (LENGTH_MEASURE( 1.000000000000000100E-005 ), #6, 'distance_accuracy_value', 'NONE');
#24 = EDGE_LOOP ( 'NONE', ( #189, #41, #69, #182 ) ) ;
#25 = EDGE_CURVE ( 'NONE', #53, #154, #118, .T. ) ;
#26 = ORIENTED_EDGE ( 'NONE', *, *, #119, .T. ) ;
#27 = VERTEX_POINT ( 'NONE', #71 ) ;
#28 = ADVANCED_FACE ( 'NONE', ( #58 ), #86, .F. ) ;
#29 = DIRECTION ( 'NONE',  ( -1.000000000000000000, 0.0000000000000000000, 0.0000000000000000000 ) ) ;
#30 = VERTEX_POINT ( 'NONE', #56 ) ;
#31 = CARTESIAN_POINT ( 'NONE',  ( -499.9999999999630500, -249.9999999999429900, 0.7500000000007930300 ) ) ;
#32 = PRESENTATION_LAYER_ASSIGNMENT (  '', '', ( #111 ) ) ;
#33 = ADVANCED_FACE ( 'NONE', ( #12 ), #191, .T. ) ;
#34 = DIRECTION ( 'NONE',  ( -1.000000000000000000, -0.0000000000000000000, -0.0000000000000000000 ) ) ;
#35 = CARTESIAN_POINT ( 'NONE',  ( 500.0000000000369500, -249.9999999999429900, 2.750000000000790000 ) ) ;
#36 = PLANE ( 'NONE',  #4 ) ;
#37 = SURFACE_STYLE_USAGE ( .BOTH. , #2 ) ;
#38 = EDGE_LOOP ( 'NONE', ( #39, #13, #79, #165 ) ) ;
#39 = ORIENTED_EDGE ( 'NONE', *, *, #169, .F. ) ;
#40 = PRODUCT_DEFINITION_FORMATION_WITH_SPECIFIED_SOURCE ( 'ANY', '', #95, .NOT_KNOWN. ) ;
#41 = ORIENTED_EDGE ( 'NONE', *, *, #84, .F. ) ;
#42 = PRESENTATION_LAYER_ASSIGNMENT (  '', '', ( #162 ) ) ;
#43 = CARTESIAN_POINT ( 'NONE',  ( 500.0000000000369500, 250.0000000000570100, 2.750000000000790000 ) ) ;
#44 = EDGE_LOOP ( 'NONE', ( #93, #129, #26, #120 ) ) ;
#45 = CARTESIAN_POINT ( 'NONE',  ( -499.9999999999630500, 250.0000000000570100, 2.750000000000790000 ) ) ;
#46 = PRODUCT_DEFINITION_SHAPE ( 'NONE', 'NONE',  #148 ) ;
#47 = DIRECTION ( 'NONE',  ( 0.0000000000000000000, -1.000000000000000000, -0.0000000000000000000 ) ) ;
#48 = EDGE_CURVE ( 'NONE', #147, #30, #20, .T. ) ;
#49 = DIRECTION ( 'NONE',  ( 0.0000000000000000000, -0.0000000000000000000, -1.000000000000000000 ) ) ;
#50 = CARTESIAN_POINT ( 'NONE',  ( 500.0000000000369500, -249.9999999999429900, 2.750000000000790000 ) ) ;
#51 = CARTESIAN_POINT ( 'NONE',  ( -499.9999999999630500, -249.9999999999429900, 2.750000000000790000 ) ) ;
#52 = MECHANICAL_DESIGN_GEOMETRIC_PRESENTATION_REPRESENTATION (  '', ( #111 ), #163 ) ;
#53 = VERTEX_POINT ( 'NONE', #186 ) ;
#54 = VECTOR ( 'NONE', #174, 1000.000000000000000 ) ;
#55 = EDGE_CURVE ( 'NONE', #27, #131, #175, .T. ) ;
#56 = CARTESIAN_POINT ( 'NONE',  ( 500.0000000000369500, -249.9999999999429900, 2.750000000000790000 ) ) ;
#57 = LINE ( 'NONE', #50, #92 ) ;
#58 = FACE_OUTER_BOUND ( 'NONE', #24, .T. ) ;
#59 = DIRECTION ( 'NONE',  ( 0.0000000000000000000, -1.000000000000000000, -0.0000000000000000000 ) ) ;
#60 = CARTESIAN_POINT ( 'NONE',  ( -499.9999999999630500, -249.9999999999429900, 2.750000000000790000 ) ) ;
#61 = ORIENTED_EDGE ( 'NONE', *, *, #152, .F. ) ;
#62 = DIRECTION ( 'NONE',  ( 1.000000000000000000, 0.0000000000000000000, -0.0000000000000000000 ) ) ;
#63 = PRODUCT_CONTEXT ( 'NONE', #21, 'mechanical' ) ;
#64 = FACE_OUTER_BOUND ( 'NONE', #38, .T. ) ;
#65 = LINE ( 'NONE', #35, #181 ) ;
#66 = MANIFOLD_SOLID_BREP ( 'Importiert1', #10 ) ;
#67 = ORIENTED_EDGE ( 'NONE', *, *, #122, .F. ) ;
#68 = LINE ( 'NONE', #78, #201 ) ;
#69 = ORIENTED_EDGE ( 'NONE', *, *, #87, .F. ) ;
#70 = ADVANCED_FACE ( 'NONE', ( #64 ), #36, .F. ) ;
#71 = CARTESIAN_POINT ( 'NONE',  ( -499.9999999999630500, 250.0000000000570100, 0.7500000000007930300 ) ) ;
#72 = PRESENTATION_STYLE_ASSIGNMENT (( #141 ) ) ;
#73 = CARTESIAN_POINT ( 'NONE',  ( 500.0000000000369500, 250.0000000000570100, 2.750000000000790000 ) ) ;
#74 = DIRECTION ( 'NONE',  ( 1.000000000000000000, 0.0000000000000000000, 0.0000000000000000000 ) ) ;
#75 = VECTOR ( 'NONE', #59, 1000.000000000000000 ) ;
#76 = CARTESIAN_POINT ( 'NONE',  ( 500.0000000000369500, 250.0000000000570100, 2.750000000000790000 ) ) ;
#77 = FILL_AREA_STYLE_COLOUR ( '', #164 ) ;
#78 = CARTESIAN_POINT ( 'NONE',  ( -499.9999999999630500, 250.0000000000570100, 0.7500000000007930300 ) ) ;
#79 = ORIENTED_EDGE ( 'NONE', *, *, #55, .F. ) ;
#80 = CARTESIAN_POINT ( 'NONE',  ( 500.0000000000369500, 250.0000000000570100, 0.7500000000007930300 ) ) ;
#81 = DIRECTION ( 'NONE',  ( 1.000000000000000000, 0.0000000000000000000, -0.0000000000000000000 ) ) ;
#82 = COLOUR_RGB ( '',0.7529411764705882200, 0.7529411764705882200, 0.7529411764705882200 ) ;
#83 = ORIENTED_EDGE ( 'NONE', *, *, #152, .T. ) ;
#84 = EDGE_CURVE ( 'NONE', #30, #112, #65, .T. ) ;
#85 = ADVANCED_FACE ( 'NONE', ( #116 ), #135, .F. ) ;
#86 = PLANE ( 'NONE',  #130 ) ;
#87 = EDGE_CURVE ( 'NONE', #53, #30, #57, .T. ) ;
#88 = LINE ( 'NONE', #90, #17 ) ;
#89 = CARTESIAN_POINT ( 'NONE',  ( -499.9999999999630500, -249.9999999999429900, 2.750000000000790000 ) ) ;
#90 = CARTESIAN_POINT ( 'NONE',  ( -499.9999999999630500, -249.9999999999429900, 0.7500000000007930300 ) ) ;
#91 = DIRECTION ( 'NONE',  ( 0.0000000000000000000, 0.0000000000000000000, -1.000000000000000000 ) ) ;
#92 = VECTOR ( 'NONE', #172, 1000.000000000000000 ) ;
#93 = ORIENTED_EDGE ( 'NONE', *, *, #84, .T. ) ;
#94 =( NAMED_UNIT ( * ) PLANE_ANGLE_UNIT ( ) SI_UNIT ( $, .RADIAN. ) );
#95 = PRODUCT ( '5B0008_CNAJF00', '5B0008_CNAJF00', '', ( #63 ) ) ;
#96 = SURFACE_SIDE_STYLE ('',( #22 ) ) ;
#97 = FILL_AREA_STYLE ('',( #192 ) ) ;
#98 = SURFACE_STYLE_FILL_AREA ( #200 ) ;
#99 = LINE ( 'NONE', #73, #171 ) ;
#100 = VERTEX_POINT ( 'NONE', #31 ) ;
#101 = PRODUCT_DEFINITION_CONTEXT ( 'detailed design', #124, 'design' ) ;
#102 = VECTOR ( 'NONE', #34, 1000.000000000000000 ) ;
#103 = EDGE_CURVE ( 'NONE', #100, #53, #88, .T. ) ;
#104 = ORIENTED_EDGE ( 'NONE', *, *, #114, .F. ) ;
#105 = CARTESIAN_POINT ( 'NONE',  ( 500.0000000000369500, -249.9999999999429900, 2.750000000000790000 ) ) ;
#106 = ADVANCED_FACE ( 'NONE', ( #184 ), #18, .F. ) ;
#107 = VECTOR ( 'NONE', #167, 1000.000000000000000 ) ;
#108 = CARTESIAN_POINT ( 'NONE',  ( 500.0000000000369500, 250.0000000000570100, 2.750000000000790000 ) ) ;
#109 = ORIENTED_EDGE ( 'NONE', *, *, #48, .F. ) ;
#110 = CARTESIAN_POINT ( 'NONE',  ( -499.9999999999630500, 250.0000000000570100, 2.750000000000790000 ) ) ;
#111 = STYLED_ITEM ( 'NONE', ( #153 ), #66 ) ;
#112 = VERTEX_POINT ( 'NONE', #108 ) ;
#113 =( NAMED_UNIT ( * ) SI_UNIT ( $, .STERADIAN. ) SOLID_ANGLE_UNIT ( ) );
#114 = EDGE_CURVE ( 'NONE', #112, #131, #146, .T. ) ;
#115 = CARTESIAN_POINT ( 'NONE',  ( 0.0000000000000000000, 0.0000000000000000000, 0.0000000000000000000 ) ) ;
#116 = FACE_OUTER_BOUND ( 'NONE', #117, .T. ) ;
#117 = EDGE_LOOP ( 'NONE', ( #11, #104, #67, #83 ) ) ;
#118 = LINE ( 'NONE', #183, #107 ) ;
#119 = EDGE_CURVE ( 'NONE', #131, #147, #179, .T. ) ;
#120 = ORIENTED_EDGE ( 'NONE', *, *, #48, .T. ) ;
#121 = DIRECTION ( 'NONE',  ( 1.000000000000000000, 0.0000000000000000000, -0.0000000000000000000 ) ) ;
#122 = EDGE_CURVE ( 'NONE', #154, #112, #99, .T. ) ;
#123 = CARTESIAN_POINT ( 'NONE',  ( -499.9999999999630500, 250.0000000000570100, 2.750000000000790000 ) ) ;
#124 = APPLICATION_CONTEXT ( 'automotive_design' ) ;
#125 = EDGE_CURVE ( 'NONE', #27, #100, #188, .T. ) ;
#126 = CARTESIAN_POINT ( 'NONE',  ( -499.9999999999630500, -249.9999999999429900, 0.7500000000007930300 ) ) ;
#127 = FACE_OUTER_BOUND ( 'NONE', #176, .T. ) ;
#128 =( LENGTH_UNIT ( ) NAMED_UNIT ( * ) SI_UNIT ( .MILLI., .METRE. ) );
#129 = ORIENTED_EDGE ( 'NONE', *, *, #114, .T. ) ;
#130 = AXIS2_PLACEMENT_3D ( 'NONE', #105, #29, #173 ) ;
#131 = VERTEX_POINT ( 'NONE', #45 ) ;
#132 = ORIENTED_EDGE ( 'NONE', *, *, #103, .T. ) ;
#133 = VECTOR ( 'NONE', #195, 1000.000000000000000 ) ;
#134 = ORIENTED_EDGE ( 'NONE', *, *, #87, .T. ) ;
#135 = PLANE ( 'NONE',  #14 ) ;
#136 = EDGE_LOOP ( 'NONE', ( #134, #109, #198, #132 ) ) ;
#137 = SHAPE_DEFINITION_REPRESENTATION ( #46, #3 ) ;
#138 =( LENGTH_UNIT ( ) NAMED_UNIT ( * ) SI_UNIT ( .MILLI., .METRE. ) );
#139 = DIRECTION ( 'NONE',  ( 1.000000000000000000, 0.0000000000000000000, 0.0000000000000000000 ) ) ;
#140 = DIRECTION ( 'NONE',  ( 0.0000000000000000000, 0.0000000000000000000, 1.000000000000000000 ) ) ;
#141 = SURFACE_STYLE_USAGE ( .BOTH. , #96 ) ;
#142 = PLANE ( 'NONE',  #180 ) ;
#143 = VECTOR ( 'NONE', #47, 1000.000000000000000 ) ;
#144 = AXIS2_PLACEMENT_3D ( 'NONE', #60, #156, #121 ) ;
#145 = UNCERTAINTY_MEASURE_WITH_UNIT (LENGTH_MEASURE( 1.000000000000000100E-005 ), #128, 'distance_accuracy_value', 'NONE');
#146 = LINE ( 'NONE', #43, #102 ) ;
#147 = VERTEX_POINT ( 'NONE', #170 ) ;
#148 = PRODUCT_DEFINITION ( 'UNKNOWN', '', #40, #101 ) ;
#149 = ADVANCED_FACE ( 'NONE', ( #127 ), #142, .F. ) ;
#150 = CARTESIAN_POINT ( 'NONE',  ( -499.9999999999630500, 250.0000000000570100, 2.750000000000790000 ) ) ;
#151 = DIRECTION ( 'NONE',  ( -0.0000000000000000000, 0.0000000000000000000, 1.000000000000000000 ) ) ;
#152 = EDGE_CURVE ( 'NONE', #154, #27, #68, .T. ) ;
#153 = PRESENTATION_STYLE_ASSIGNMENT (( #37 ) ) ;
#154 = VERTEX_POINT ( 'NONE', #80 ) ;
#155 = DIRECTION ( 'NONE',  ( 0.0000000000000000000, 1.000000000000000000, -0.0000000000000000000 ) ) ;
#156 = DIRECTION ( 'NONE',  ( 0.0000000000000000000, 0.0000000000000000000, 1.000000000000000000 ) ) ;
#157 =( NAMED_UNIT ( * ) PLANE_ANGLE_UNIT ( ) SI_UNIT ( $, .RADIAN. ) );
#158 =( GEOMETRIC_REPRESENTATION_CONTEXT ( 3 ) GLOBAL_UNCERTAINTY_ASSIGNED_CONTEXT ( ( #23 ) ) GLOBAL_UNIT_ASSIGNED_CONTEXT ( ( #6, #160, #196 ) ) REPRESENTATION_CONTEXT ( 'NONE', 'WORKASPACE' ) );
#159 = APPLICATION_PROTOCOL_DEFINITION ( 'draft international standard', 'automotive_design', 1998, #124 ) ;
#160 =( NAMED_UNIT ( * ) PLANE_ANGLE_UNIT ( ) SI_UNIT ( $, .RADIAN. ) );
#161 = LINE ( 'NONE', #51, #133 ) ;
#162 = STYLED_ITEM ( 'NONE', ( #72 ), #3 ) ;
#163 =( GEOMETRIC_REPRESENTATION_CONTEXT ( 3 ) GLOBAL_UNCERTAINTY_ASSIGNED_CONTEXT ( ( #178 ) ) GLOBAL_UNIT_ASSIGNED_CONTEXT ( ( #138, #94, #190 ) ) REPRESENTATION_CONTEXT ( 'NONE', 'WORKASPACE' ) );
#164 = COLOUR_RGB ( '',0.6274509803921568500, 0.8352941176470588500, 1.000000000000000000 ) ;
#165 = ORIENTED_EDGE ( 'NONE', *, *, #125, .T. ) ;
#166 = AXIS2_PLACEMENT_3D ( 'NONE', #89, #187, #1 ) ;
#167 = DIRECTION ( 'NONE',  ( -0.0000000000000000000, 1.000000000000000000, 0.0000000000000000000 ) ) ;
#168 = MECHANICAL_DESIGN_GEOMETRIC_PRESENTATION_REPRESENTATION (  '', ( #162 ), #5 ) ;
#169 = EDGE_CURVE ( 'NONE', #147, #100, #161, .T. ) ;
#170 = CARTESIAN_POINT ( 'NONE',  ( -499.9999999999630500, -249.9999999999429900, 2.750000000000790000 ) ) ;
#171 = VECTOR ( 'NONE', #151, 1000.000000000000000 ) ;
#172 = DIRECTION ( 'NONE',  ( 0.0000000000000000000, 0.0000000000000000000, 1.000000000000000000 ) ) ;
#173 = DIRECTION ( 'NONE',  ( 0.0000000000000000000, 0.0000000000000000000, 1.000000000000000000 ) ) ;
#174 = DIRECTION ( 'NONE',  ( 1.000000000000000000, 0.0000000000000000000, -0.0000000000000000000 ) ) ;
#175 = LINE ( 'NONE', #123, #7 ) ;
#176 = EDGE_LOOP ( 'NONE', ( #61, #8, #197, #199 ) ) ;
#177 = DIRECTION ( 'NONE',  ( 0.0000000000000000000, 0.0000000000000000000, 1.000000000000000000 ) ) ;
#178 = UNCERTAINTY_MEASURE_WITH_UNIT (LENGTH_MEASURE( 1.000000000000000100E-005 ), #138, 'distance_accuracy_value', 'NONE');
#179 = LINE ( 'NONE', #150, #75 ) ;
#180 = AXIS2_PLACEMENT_3D ( 'NONE', #126, #177, #81 ) ;
#181 = VECTOR ( 'NONE', #155, 1000.000000000000000 ) ;
#182 = ORIENTED_EDGE ( 'NONE', *, *, #25, .T. ) ;
#183 = CARTESIAN_POINT ( 'NONE',  ( 500.0000000000369500, -249.9999999999429900, 0.7500000000007930300 ) ) ;
#184 = FACE_OUTER_BOUND ( 'NONE', #136, .T. ) ;
#185 = CARTESIAN_POINT ( 'NONE',  ( -499.9999999999630500, -249.9999999999429900, 2.750000000000790000 ) ) ;
#186 = CARTESIAN_POINT ( 'NONE',  ( 500.0000000000369500, -249.9999999999429900, 0.7500000000007930300 ) ) ;
#187 = DIRECTION ( 'NONE',  ( 0.0000000000000000000, 1.000000000000000000, 0.0000000000000000000 ) ) ;
#188 = LINE ( 'NONE', #202, #143 ) ;
#189 = ORIENTED_EDGE ( 'NONE', *, *, #122, .T. ) ;
#190 =( NAMED_UNIT ( * ) SI_UNIT ( $, .STERADIAN. ) SOLID_ANGLE_UNIT ( ) );
#191 = PLANE ( 'NONE',  #144 ) ;
#192 = FILL_AREA_STYLE_COLOUR ( '', #82 ) ;
#193 = AXIS2_PLACEMENT_3D ( 'NONE', #115, #140, #139 ) ;
#194 = DIRECTION ( 'NONE',  ( -1.000000000000000000, -0.0000000000000000000, 0.0000000000000000000 ) ) ;
#195 = DIRECTION ( 'NONE',  ( 0.0000000000000000000, 0.0000000000000000000, -1.000000000000000000 ) ) ;
#196 =( NAMED_UNIT ( * ) SI_UNIT ( $, .STERADIAN. ) SOLID_ANGLE_UNIT ( ) );
#197 = ORIENTED_EDGE ( 'NONE', *, *, #103, .F. ) ;
#198 = ORIENTED_EDGE ( 'NONE', *, *, #169, .T. ) ;
#199 = ORIENTED_EDGE ( 'NONE', *, *, #125, .F. ) ;
#200 = FILL_AREA_STYLE ('',( #77 ) ) ;
#201 = VECTOR ( 'NONE', #194, 1000.000000000000000 ) ;
#202 = CARTESIAN_POINT ( 'NONE',  ( -499.9999999999630500, -249.9999999999429900, 0.7500000000007930300 ) ) ;
ENDSEC;
END-ISO-10303-21;
