ISO-10303-21;
HEADER;
FILE_DESCRIPTION (( 'STEP AP214' ),
    '1' );
FILE_NAME ('5B0003',
    '2019-02-01T12:50:18',
    ( '' ),
    ('JUGARD+KÜNSTNER GmbH'),
    'SwSTEP 2.0',
    'SolidWorks 2017',
    '' );
FILE_SCHEMA (( 'AUTOMOTIVE_DESIGN' ));
ENDSEC;

DATA;
#1 = ADVANCED_FACE ( 'NONE', ( #143 ), #174, .T. ) ;
#2 = DIRECTION ( 'NONE',  ( 1.000000000000000000, 0.0000000000000000000, -0.0000000000000000000 ) ) ;
#3 = CARTESIAN_POINT ( 'NONE',  ( -499.9999999999630500, -249.9999999999429900, 2.250000000000790000 ) ) ;
#4 = VECTOR ( 'NONE', #189, 1000.000000000000000 ) ;
#5 = ORIENTED_EDGE ( 'NONE', *, *, #71, .T. ) ;
#6 = AXIS2_PLACEMENT_3D ( 'NONE', #3, #92, #2 ) ;
#7 = DIRECTION ( 'NONE',  ( 0.0000000000000000000, 1.000000000000000000, -0.0000000000000000000 ) ) ;
#8 = PLANE ( 'NONE',  #148 ) ;
#9 = LINE ( 'NONE', #202, #177 ) ;
#10 =( NAMED_UNIT ( * ) SI_UNIT ( $, .STERADIAN. ) SOLID_ANGLE_UNIT ( ) );
#11 = DIRECTION ( 'NONE',  ( 1.000000000000000000, 0.0000000000000000000, -0.0000000000000000000 ) ) ;
#12 = CARTESIAN_POINT ( 'NONE',  ( -499.9999999999630500, 250.0000000000570100, 2.250000000000790000 ) ) ;
#13 = SURFACE_STYLE_FILL_AREA ( #22 ) ;
#14 = EDGE_CURVE ( 'NONE', #154, #129, #120, .T. ) ;
#15 = PRODUCT_RELATED_PRODUCT_CATEGORY ( 'part', '', ( #132 ) ) ;
#16 = ORIENTED_EDGE ( 'NONE', *, *, #103, .F. ) ;
#17 = STYLED_ITEM ( 'NONE', ( #195 ), #93 ) ;
#18 = VERTEX_POINT ( 'NONE', #123 ) ;
#19 =( NAMED_UNIT ( * ) PLANE_ANGLE_UNIT ( ) SI_UNIT ( $, .RADIAN. ) );
#20 = CARTESIAN_POINT ( 'NONE',  ( 500.0000000000369500, 250.0000000000570100, 2.250000000000790000 ) ) ;
#21 = ORIENTED_EDGE ( 'NONE', *, *, #41, .F. ) ;
#22 = FILL_AREA_STYLE ('',( #68 ) ) ;
#23 = ORIENTED_EDGE ( 'NONE', *, *, #147, .F. ) ;
#24 = AXIS2_PLACEMENT_3D ( 'NONE', #94, #44, #89 ) ;
#25 = ORIENTED_EDGE ( 'NONE', *, *, #71, .F. ) ;
#26 = CARTESIAN_POINT ( 'NONE',  ( -499.9999999999630500, -249.9999999999429900, 0.7500000000007930300 ) ) ;
#27 = AXIS2_PLACEMENT_3D ( 'NONE', #26, #191, #179 ) ;
#28 = ORIENTED_EDGE ( 'NONE', *, *, #160, .F. ) ;
#29 = FACE_OUTER_BOUND ( 'NONE', #95, .T. ) ;
#30 = ORIENTED_EDGE ( 'NONE', *, *, #124, .F. ) ;
#31 = PRESENTATION_LAYER_ASSIGNMENT (  '', '', ( #17 ) ) ;
#32 = UNCERTAINTY_MEASURE_WITH_UNIT (LENGTH_MEASURE( 1.000000000000000100E-005 ), #117, 'distance_accuracy_value', 'NONE');
#33 = DIRECTION ( 'NONE',  ( 1.000000000000000000, 0.0000000000000000000, 0.0000000000000000000 ) ) ;
#34 = APPLICATION_PROTOCOL_DEFINITION ( 'draft international standard', 'automotive_design', 1998, #86 ) ;
#35 = EDGE_LOOP ( 'NONE', ( #181, #184, #70, #106 ) ) ;
#36 =( NAMED_UNIT ( * ) PLANE_ANGLE_UNIT ( ) SI_UNIT ( $, .RADIAN. ) );
#37 = VECTOR ( 'NONE', #115, 1000.000000000000000 ) ;
#38 = ORIENTED_EDGE ( 'NONE', *, *, #135, .F. ) ;
#39 = SURFACE_STYLE_FILL_AREA ( #183 ) ;
#40 = ADVANCED_FACE ( 'NONE', ( #56 ), #155, .F. ) ;
#41 = EDGE_CURVE ( 'NONE', #18, #54, #111, .T. ) ;
#42 = VECTOR ( 'NONE', #108, 1000.000000000000000 ) ;
#43 = DIRECTION ( 'NONE',  ( -0.0000000000000000000, 0.0000000000000000000, 1.000000000000000000 ) ) ;
#44 = DIRECTION ( 'NONE',  ( 0.0000000000000000000, 1.000000000000000000, 0.0000000000000000000 ) ) ;
#45 = FACE_OUTER_BOUND ( 'NONE', #52, .T. ) ;
#46 = EDGE_LOOP ( 'NONE', ( #199, #23, #30, #98 ) ) ;
#47 = DIRECTION ( 'NONE',  ( 1.000000000000000000, 0.0000000000000000000, -0.0000000000000000000 ) ) ;
#48 = CARTESIAN_POINT ( 'NONE',  ( -499.9999999999630500, -249.9999999999429900, 0.7500000000007930300 ) ) ;
#49 = VECTOR ( 'NONE', #142, 1000.000000000000000 ) ;
#50 =( GEOMETRIC_REPRESENTATION_CONTEXT ( 3 ) GLOBAL_UNCERTAINTY_ASSIGNED_CONTEXT ( ( #136 ) ) GLOBAL_UNIT_ASSIGNED_CONTEXT ( ( #69, #128, #10 ) ) REPRESENTATION_CONTEXT ( 'NONE', 'WORKASPACE' ) );
#51 = SURFACE_STYLE_USAGE ( .BOTH. , #145 ) ;
#52 = EDGE_LOOP ( 'NONE', ( #186, #87, #16, #149 ) ) ;
#53 = CARTESIAN_POINT ( 'NONE',  ( -499.9999999999630500, -249.9999999999429900, 2.250000000000790000 ) ) ;
#54 = VERTEX_POINT ( 'NONE', #107 ) ;
#55 = MECHANICAL_DESIGN_GEOMETRIC_PRESENTATION_REPRESENTATION (  '', ( #17 ), #178 ) ;
#56 = FACE_OUTER_BOUND ( 'NONE', #60, .T. ) ;
#57 = LINE ( 'NONE', #66, #4 ) ;
#58 = CARTESIAN_POINT ( 'NONE',  ( -499.9999999999630500, 250.0000000000570100, 2.250000000000790000 ) ) ;
#59 = PRODUCT_DEFINITION_FORMATION_WITH_SPECIFIED_SOURCE ( 'ANY', '', #132, .NOT_KNOWN. ) ;
#60 = EDGE_LOOP ( 'NONE', ( #159, #28, #77, #167 ) ) ;
#61 = COLOUR_RGB ( '',0.7529411764705882200, 0.7529411764705882200, 0.7529411764705882200 ) ;
#62 = CARTESIAN_POINT ( 'NONE',  ( 500.0000000000369500, -249.9999999999429900, 0.7500000000007930300 ) ) ;
#63 = CARTESIAN_POINT ( 'NONE',  ( -499.9999999999630500, -249.9999999999429900, 0.7500000000007930300 ) ) ;
#64 = UNCERTAINTY_MEASURE_WITH_UNIT (LENGTH_MEASURE( 1.000000000000000100E-005 ), #156, 'distance_accuracy_value', 'NONE');
#65 = LINE ( 'NONE', #162, #49 ) ;
#66 = CARTESIAN_POINT ( 'NONE',  ( 500.0000000000369500, -249.9999999999429900, 0.7500000000007930300 ) ) ;
#67 = CARTESIAN_POINT ( 'NONE',  ( 0.0000000000000000000, 0.0000000000000000000, 0.0000000000000000000 ) ) ;
#68 = FILL_AREA_STYLE_COLOUR ( '', #61 ) ;
#69 =( LENGTH_UNIT ( ) NAMED_UNIT ( * ) SI_UNIT ( .MILLI., .METRE. ) );
#70 = ORIENTED_EDGE ( 'NONE', *, *, #116, .T. ) ;
#71 = EDGE_CURVE ( 'NONE', #18, #146, #9, .T. ) ;
#72 = ORIENTED_EDGE ( 'NONE', *, *, #173, .F. ) ;
#73 = CARTESIAN_POINT ( 'NONE',  ( 500.0000000000369500, 250.0000000000570100, 2.250000000000790000 ) ) ;
#74 =( GEOMETRIC_REPRESENTATION_CONTEXT ( 3 ) GLOBAL_UNCERTAINTY_ASSIGNED_CONTEXT ( ( #32 ) ) GLOBAL_UNIT_ASSIGNED_CONTEXT ( ( #117, #36, #144 ) ) REPRESENTATION_CONTEXT ( 'NONE', 'WORKASPACE' ) );
#75 = EDGE_LOOP ( 'NONE', ( #25, #172, #164, #38 ) ) ;
#76 = PRESENTATION_STYLE_ASSIGNMENT (( #51 ) ) ;
#77 = ORIENTED_EDGE ( 'NONE', *, *, #14, .T. ) ;
#78 = DIRECTION ( 'NONE',  ( -1.000000000000000000, -0.0000000000000000000, 0.0000000000000000000 ) ) ;
#79 = DIRECTION ( 'NONE',  ( 0.0000000000000000000, -1.000000000000000000, -0.0000000000000000000 ) ) ;
#80 = LINE ( 'NONE', #53, #118 ) ;
#81 = CARTESIAN_POINT ( 'NONE',  ( -499.9999999999630500, -249.9999999999429900, 2.250000000000790000 ) ) ;
#82 = DIRECTION ( 'NONE',  ( 1.000000000000000000, 0.0000000000000000000, 0.0000000000000000000 ) ) ;
#83 = PLANE ( 'NONE',  #27 ) ;
#84 = AXIS2_PLACEMENT_3D ( 'NONE', #187, #112, #161 ) ;
#85 = VECTOR ( 'NONE', #185, 1000.000000000000000 ) ;
#86 = APPLICATION_CONTEXT ( 'automotive_design' ) ;
#87 = ORIENTED_EDGE ( 'NONE', *, *, #116, .F. ) ;
#88 = LINE ( 'NONE', #73, #37 ) ;
#89 = DIRECTION ( 'NONE',  ( 0.0000000000000000000, -0.0000000000000000000, 1.000000000000000000 ) ) ;
#90 = SURFACE_SIDE_STYLE ('',( #39 ) ) ;
#91 = CARTESIAN_POINT ( 'NONE',  ( -499.9999999999630500, -249.9999999999429900, 2.250000000000790000 ) ) ;
#92 = DIRECTION ( 'NONE',  ( 0.0000000000000000000, 0.0000000000000000000, 1.000000000000000000 ) ) ;
#93 = MANIFOLD_SOLID_BREP ( 'Importiert1', #193 ) ;
#94 = CARTESIAN_POINT ( 'NONE',  ( -499.9999999999630500, -249.9999999999429900, 2.250000000000790000 ) ) ;
#95 = EDGE_LOOP ( 'NONE', ( #122, #72, #21, #5 ) ) ;
#96 = DIRECTION ( 'NONE',  ( 0.0000000000000000000, -1.000000000000000000, -0.0000000000000000000 ) ) ;
#97 = CARTESIAN_POINT ( 'NONE',  ( 500.0000000000369500, -249.9999999999429900, 2.250000000000790000 ) ) ;
#98 = ORIENTED_EDGE ( 'NONE', *, *, #141, .T. ) ;
#99 = DIRECTION ( 'NONE',  ( 0.0000000000000000000, 0.0000000000000000000, -1.000000000000000000 ) ) ;
#100 = LINE ( 'NONE', #140, #42 ) ;
#101 = LINE ( 'NONE', #97, #137 ) ;
#102 = VERTEX_POINT ( 'NONE', #58 ) ;
#103 = EDGE_CURVE ( 'NONE', #146, #102, #100, .T. ) ;
#104 = PRESENTATION_LAYER_ASSIGNMENT (  '', '', ( #114 ) ) ;
#105 = VECTOR ( 'NONE', #96, 1000.000000000000000 ) ;
#106 = ORIENTED_EDGE ( 'NONE', *, *, #160, .T. ) ;
#107 = CARTESIAN_POINT ( 'NONE',  ( 500.0000000000369500, 250.0000000000570100, 2.250000000000790000 ) ) ;
#108 = DIRECTION ( 'NONE',  ( -0.0000000000000000000, -0.0000000000000000000, 1.000000000000000000 ) ) ;
#109 = CARTESIAN_POINT ( 'NONE',  ( -499.9999999999630500, -249.9999999999429900, 0.7500000000007930300 ) ) ;
#110 = SHAPE_DEFINITION_REPRESENTATION ( #198, #182 ) ;
#111 = LINE ( 'NONE', #20, #190 ) ;
#112 = DIRECTION ( 'NONE',  ( 0.0000000000000000000, -1.000000000000000000, 0.0000000000000000000 ) ) ;
#113 = DIRECTION ( 'NONE',  ( 0.0000000000000000000, 0.0000000000000000000, 1.000000000000000000 ) ) ;
#114 = STYLED_ITEM ( 'NONE', ( #76 ), #182 ) ;
#115 = DIRECTION ( 'NONE',  ( -1.000000000000000000, -0.0000000000000000000, -0.0000000000000000000 ) ) ;
#116 = EDGE_CURVE ( 'NONE', #102, #154, #153, .T. ) ;
#117 =( LENGTH_UNIT ( ) NAMED_UNIT ( * ) SI_UNIT ( .MILLI., .METRE. ) );
#118 = VECTOR ( 'NONE', #11, 1000.000000000000000 ) ;
#119 = VERTEX_POINT ( 'NONE', #188 ) ;
#120 = LINE ( 'NONE', #91, #85 ) ;
#121 = LINE ( 'NONE', #109, #194 ) ;
#122 = ORIENTED_EDGE ( 'NONE', *, *, #103, .T. ) ;
#123 = CARTESIAN_POINT ( 'NONE',  ( 500.0000000000369500, 250.0000000000570100, 0.7500000000007930300 ) ) ;
#124 = EDGE_CURVE ( 'NONE', #138, #119, #65, .T. ) ;
#125 = PLANE ( 'NONE',  #180 ) ;
#126 = PLANE ( 'NONE',  #84 ) ;
#127 = FACE_OUTER_BOUND ( 'NONE', #75, .T. ) ;
#128 =( NAMED_UNIT ( * ) PLANE_ANGLE_UNIT ( ) SI_UNIT ( $, .RADIAN. ) );
#129 = VERTEX_POINT ( 'NONE', #48 ) ;
#130 = PRODUCT_CONTEXT ( 'NONE', #192, 'mechanical' ) ;
#131 = DIRECTION ( 'NONE',  ( 0.0000000000000000000, 0.0000000000000000000, 1.000000000000000000 ) ) ;
#132 = PRODUCT ( '5B0003_CNAJF00', '5B0003_CNAJF00', '', ( #130 ) ) ;
#133 = APPLICATION_PROTOCOL_DEFINITION ( 'draft international standard', 'automotive_design', 1998, #192 ) ;
#134 = VECTOR ( 'NONE', #79, 1000.000000000000000 ) ;
#135 = EDGE_CURVE ( 'NONE', #146, #129, #166, .T. ) ;
#136 = UNCERTAINTY_MEASURE_WITH_UNIT (LENGTH_MEASURE( 1.000000000000000100E-005 ), #69, 'distance_accuracy_value', 'NONE');
#137 = VECTOR ( 'NONE', #7, 1000.000000000000000 ) ;
#138 = VERTEX_POINT ( 'NONE', #62 ) ;
#139 = CARTESIAN_POINT ( 'NONE',  ( 500.0000000000369500, -249.9999999999429900, 2.250000000000790000 ) ) ;
#140 = CARTESIAN_POINT ( 'NONE',  ( -499.9999999999630500, 250.0000000000570100, 2.250000000000790000 ) ) ;
#141 = EDGE_CURVE ( 'NONE', #138, #18, #57, .T. ) ;
#142 = DIRECTION ( 'NONE',  ( 0.0000000000000000000, 0.0000000000000000000, 1.000000000000000000 ) ) ;
#143 = FACE_OUTER_BOUND ( 'NONE', #35, .T. ) ;
#144 =( NAMED_UNIT ( * ) SI_UNIT ( $, .STERADIAN. ) SOLID_ANGLE_UNIT ( ) );
#145 = SURFACE_SIDE_STYLE ('',( #13 ) ) ;
#146 = VERTEX_POINT ( 'NONE', #165 ) ;
#147 = EDGE_CURVE ( 'NONE', #119, #54, #101, .T. ) ;
#148 = AXIS2_PLACEMENT_3D ( 'NONE', #12, #82, #99 ) ;
#149 = ORIENTED_EDGE ( 'NONE', *, *, #135, .T. ) ;
#150 = ADVANCED_FACE ( 'NONE', ( #29 ), #126, .F. ) ;
#151 = FILL_AREA_STYLE_COLOUR ( '', #168 ) ;
#152 = EDGE_CURVE ( 'NONE', #129, #138, #121, .T. ) ;
#153 = LINE ( 'NONE', #176, #105 ) ;
#154 = VERTEX_POINT ( 'NONE', #81 ) ;
#155 = PLANE ( 'NONE',  #24 ) ;
#156 =( LENGTH_UNIT ( ) NAMED_UNIT ( * ) SI_UNIT ( .MILLI., .METRE. ) );
#157 = ADVANCED_FACE ( 'NONE', ( #163 ), #125, .F. ) ;
#158 = MECHANICAL_DESIGN_GEOMETRIC_PRESENTATION_REPRESENTATION (  '', ( #114 ), #50 ) ;
#159 = ORIENTED_EDGE ( 'NONE', *, *, #124, .T. ) ;
#160 = EDGE_CURVE ( 'NONE', #154, #119, #80, .T. ) ;
#161 = DIRECTION ( 'NONE',  ( 0.0000000000000000000, -0.0000000000000000000, -1.000000000000000000 ) ) ;
#162 = CARTESIAN_POINT ( 'NONE',  ( 500.0000000000369500, -249.9999999999429900, 2.250000000000790000 ) ) ;
#163 = FACE_OUTER_BOUND ( 'NONE', #46, .T. ) ;
#164 = ORIENTED_EDGE ( 'NONE', *, *, #152, .F. ) ;
#165 = CARTESIAN_POINT ( 'NONE',  ( -499.9999999999630500, 250.0000000000570100, 0.7500000000007930300 ) ) ;
#166 = LINE ( 'NONE', #63, #134 ) ;
#167 = ORIENTED_EDGE ( 'NONE', *, *, #152, .T. ) ;
#168 = COLOUR_RGB ( '',0.6274509803921568500, 0.8352941176470588500, 1.000000000000000000 ) ;
#169 = ADVANCED_FACE ( 'NONE', ( #127 ), #83, .F. ) ;
#170 = AXIS2_PLACEMENT_3D ( 'NONE', #67, #131, #33 ) ;
#171 = PRODUCT_DEFINITION_CONTEXT ( 'detailed design', #86, 'design' ) ;
#172 = ORIENTED_EDGE ( 'NONE', *, *, #141, .F. ) ;
#173 = EDGE_CURVE ( 'NONE', #54, #102, #88, .T. ) ;
#174 = PLANE ( 'NONE',  #6 ) ;
#175 =( NAMED_UNIT ( * ) SI_UNIT ( $, .STERADIAN. ) SOLID_ANGLE_UNIT ( ) );
#176 = CARTESIAN_POINT ( 'NONE',  ( -499.9999999999630500, 250.0000000000570100, 2.250000000000790000 ) ) ;
#177 = VECTOR ( 'NONE', #78, 1000.000000000000000 ) ;
#178 =( GEOMETRIC_REPRESENTATION_CONTEXT ( 3 ) GLOBAL_UNCERTAINTY_ASSIGNED_CONTEXT ( ( #64 ) ) GLOBAL_UNIT_ASSIGNED_CONTEXT ( ( #156, #19, #175 ) ) REPRESENTATION_CONTEXT ( 'NONE', 'WORKASPACE' ) );
#179 = DIRECTION ( 'NONE',  ( 1.000000000000000000, 0.0000000000000000000, -0.0000000000000000000 ) ) ;
#180 = AXIS2_PLACEMENT_3D ( 'NONE', #139, #196, #113 ) ;
#181 = ORIENTED_EDGE ( 'NONE', *, *, #147, .T. ) ;
#182 = ADVANCED_BREP_SHAPE_REPRESENTATION ( '5B0003_CNAJF00', ( #93, #170 ), #74 ) ;
#183 = FILL_AREA_STYLE ('',( #151 ) ) ;
#184 = ORIENTED_EDGE ( 'NONE', *, *, #173, .T. ) ;
#185 = DIRECTION ( 'NONE',  ( 0.0000000000000000000, 0.0000000000000000000, -1.000000000000000000 ) ) ;
#186 = ORIENTED_EDGE ( 'NONE', *, *, #14, .F. ) ;
#187 = CARTESIAN_POINT ( 'NONE',  ( 500.0000000000369500, 250.0000000000570100, 2.250000000000790000 ) ) ;
#188 = CARTESIAN_POINT ( 'NONE',  ( 500.0000000000369500, -249.9999999999429900, 2.250000000000790000 ) ) ;
#189 = DIRECTION ( 'NONE',  ( -0.0000000000000000000, 1.000000000000000000, 0.0000000000000000000 ) ) ;
#190 = VECTOR ( 'NONE', #43, 1000.000000000000000 ) ;
#191 = DIRECTION ( 'NONE',  ( 0.0000000000000000000, 0.0000000000000000000, 1.000000000000000000 ) ) ;
#192 = APPLICATION_CONTEXT ( 'automotive_design' ) ;
#193 = CLOSED_SHELL ( 'NONE', ( #169, #200, #150, #157, #40, #1 ) ) ;
#194 = VECTOR ( 'NONE', #47, 1000.000000000000000 ) ;
#195 = PRESENTATION_STYLE_ASSIGNMENT (( #201 ) ) ;
#196 = DIRECTION ( 'NONE',  ( -1.000000000000000000, 0.0000000000000000000, 0.0000000000000000000 ) ) ;
#197 = PRODUCT_DEFINITION ( 'UNKNOWN', '', #59, #171 ) ;
#198 = PRODUCT_DEFINITION_SHAPE ( 'NONE', 'NONE',  #197 ) ;
#199 = ORIENTED_EDGE ( 'NONE', *, *, #41, .T. ) ;
#200 = ADVANCED_FACE ( 'NONE', ( #45 ), #8, .F. ) ;
#201 = SURFACE_STYLE_USAGE ( .BOTH. , #90 ) ;
#202 = CARTESIAN_POINT ( 'NONE',  ( -499.9999999999630500, 250.0000000000570100, 0.7500000000007930300 ) ) ;
ENDSEC;
END-ISO-10303-21;
