ISO-10303-21;
HEADER;
FILE_DESCRIPTION (( 'STEP AP214' ),
    '1' );
FILE_NAME ('500115',
    '2019-02-01T14:36:24',
    ( '' ),
    ('JUGARD+KÜNSTNER GmbH'),
    'SwSTEP 2.0',
    'SolidWorks 2017',
    '' );
FILE_SCHEMA (( 'AUTOMOTIVE_DESIGN' ));
ENDSEC;

DATA;
#1 = EDGE_CURVE ( 'NONE', #27, #105, #238, .T. ) ;
#2 = AXIS2_PLACEMENT_3D ( 'NONE', #145, #184, #167 ) ;
#3 = SURFACE_STYLE_FILL_AREA ( #272 ) ;
#4 = VERTEX_POINT ( 'NONE', #242 ) ;
#5 = EDGE_CURVE ( 'NONE', #153, #255, #258, .T. ) ;
#6 = VERTEX_POINT ( 'NONE', #55 ) ;
#7 = COLOUR_RGB ( '',0.7529411764705882200, 0.7529411764705882200, 0.7529411764705882200 ) ;
#8 = LINE ( 'NONE', #39, #32 ) ;
#9 = CARTESIAN_POINT ( 'NONE',  ( 6.500000000000000900, -2.449293598294707900E-016, 14.00000000000000000 ) ) ;
#10 = DIRECTION ( 'NONE',  ( -0.0000000000000000000, -0.0000000000000000000, -1.000000000000000000 ) ) ;
#11 = CARTESIAN_POINT ( 'NONE',  ( 13.00000000000000200, 0.0000000000000000000, 0.0000000000000000000 ) ) ;
#12 = AXIS2_PLACEMENT_3D ( 'NONE', #203, #225, #16 ) ;
#13 = CARTESIAN_POINT ( 'NONE',  ( 6.500000000000000900, 13.00000000000000200, 14.00000000000000000 ) ) ;
#14 = ORIENTED_EDGE ( 'NONE', *, *, #50, .T. ) ;
#15 = EDGE_CURVE ( 'NONE', #217, #27, #183, .T. ) ;
#16 = DIRECTION ( 'NONE',  ( 1.000000000000000000, 0.0000000000000000000, -0.0000000000000000000 ) ) ;
#17 = CARTESIAN_POINT ( 'NONE',  ( 0.0000000000000000000, 0.0000000000000000000, 1500.000000000000000 ) ) ;
#18 = CARTESIAN_POINT ( 'NONE',  ( 0.0000000000000000000, 0.0000000000000000000, 0.0000000000000000000 ) ) ;
#19 = PRESENTATION_LAYER_ASSIGNMENT (  '', '', ( #186 ) ) ;
#20 =( NAMED_UNIT ( * ) PLANE_ANGLE_UNIT ( ) SI_UNIT ( $, .RADIAN. ) );
#21 = EDGE_CURVE ( 'NONE', #173, #158, #65, .T. ) ;
#22 = DIRECTION ( 'NONE',  ( 1.000000000000000000, 0.0000000000000000000, 0.0000000000000000000 ) ) ;
#23 = VERTEX_POINT ( 'NONE', #73 ) ;
#24 = COLOUR_RGB ( '',0.8745098039215686300, 0.9137254901960784000, 1.000000000000000000 ) ;
#25 = FACE_BOUND ( 'NONE', #35, .T. ) ;
#26 = ADVANCED_FACE ( 'NONE', ( #67, #25 ), #197, .F. ) ;
#27 = VERTEX_POINT ( 'NONE', #9 ) ;
#28 = VECTOR ( 'NONE', #231, 1000.000000000000000 ) ;
#29 = VECTOR ( 'NONE', #239, 1000.000000000000000 ) ;
#30 = CARTESIAN_POINT ( 'NONE',  ( 0.0000000000000000000, 0.0000000000000000000, 1500.000000000000000 ) ) ;
#31 = PLANE ( 'NONE',  #264 ) ;
#32 = VECTOR ( 'NONE', #268, 1000.000000000000000 ) ;
#33 = CARTESIAN_POINT ( 'NONE',  ( 13.00000000000000200, 13.00000000000000200, 1500.000000000000000 ) ) ;
#34 = UNCERTAINTY_MEASURE_WITH_UNIT (LENGTH_MEASURE( 1.000000000000000100E-005 ), #155, 'distance_accuracy_value', 'NONE');
#35 = EDGE_LOOP ( 'NONE', ( #276, #124 ) ) ;
#36 = CARTESIAN_POINT ( 'NONE',  ( 13.00000000000000200, 0.0000000000000000000, 1500.000000000000000 ) ) ;
#37 =( NAMED_UNIT ( * ) PLANE_ANGLE_UNIT ( ) SI_UNIT ( $, .RADIAN. ) );
#38 = CYLINDRICAL_SURFACE ( 'NONE', #256, 4.000000000000000000 ) ;
#39 = CARTESIAN_POINT ( 'NONE',  ( 0.0000000000000000000, 13.00000000000000200, 1500.000000000000000 ) ) ;
#40 = ORIENTED_EDGE ( 'NONE', *, *, #1, .T. ) ;
#41 = STYLED_ITEM ( 'NONE', ( #263 ), #110 ) ;
#42 = EDGE_LOOP ( 'NONE', ( #210, #134 ) ) ;
#43 = ORIENTED_EDGE ( 'NONE', *, *, #123, .F. ) ;
#44 = PRODUCT_CONTEXT ( 'NONE', #104, 'mechanical' ) ;
#45 = SURFACE_STYLE_FILL_AREA ( #127 ) ;
#46 = EDGE_LOOP ( 'NONE', ( #109, #157, #227, #260 ) ) ;
#47 =( GEOMETRIC_REPRESENTATION_CONTEXT ( 3 ) GLOBAL_UNCERTAINTY_ASSIGNED_CONTEXT ( ( #97 ) ) GLOBAL_UNIT_ASSIGNED_CONTEXT ( ( #169, #64, #102 ) ) REPRESENTATION_CONTEXT ( 'NONE', 'WORKASPACE' ) );
#48 = LINE ( 'NONE', #220, #29 ) ;
#49 = ORIENTED_EDGE ( 'NONE', *, *, #50, .F. ) ;
#50 = EDGE_CURVE ( 'NONE', #171, #229, #257, .T. ) ;
#51 = ORIENTED_EDGE ( 'NONE', *, *, #15, .T. ) ;
#52 = LINE ( 'NONE', #84, #28 ) ;
#53 = ADVANCED_FACE ( 'NONE', ( #250 ), #178, .F. ) ;
#54 = DIRECTION ( 'NONE',  ( -1.000000000000000000, -0.0000000000000000000, -0.0000000000000000000 ) ) ;
#55 = CARTESIAN_POINT ( 'NONE',  ( 13.00000000000000200, 0.0000000000000000000, 0.0000000000000000000 ) ) ;
#56 = ORIENTED_EDGE ( 'NONE', *, *, #5, .F. ) ;
#57 =( GEOMETRIC_REPRESENTATION_CONTEXT ( 3 ) GLOBAL_UNCERTAINTY_ASSIGNED_CONTEXT ( ( #85 ) ) GLOBAL_UNIT_ASSIGNED_CONTEXT ( ( #270, #37, #248 ) ) REPRESENTATION_CONTEXT ( 'NONE', 'WORKASPACE' ) );
#58 = PLANE ( 'NONE',  #2 ) ;
#59 = ORIENTED_EDGE ( 'NONE', *, *, #181, .T. ) ;
#60 = DIRECTION ( 'NONE',  ( 0.0000000000000000000, -0.0000000000000000000, 1.000000000000000000 ) ) ;
#61 = CARTESIAN_POINT ( 'NONE',  ( 6.500000000000000900, 13.00000000000000200, 10.00000000000000000 ) ) ;
#62 = PRODUCT_RELATED_PRODUCT_CATEGORY ( 'part', '', ( #99 ) ) ;
#63 = EDGE_LOOP ( 'NONE', ( #273, #51, #40, #59 ) ) ;
#64 =( NAMED_UNIT ( * ) PLANE_ANGLE_UNIT ( ) SI_UNIT ( $, .RADIAN. ) );
#65 = LINE ( 'NONE', #176, #219 ) ;
#66 = ORIENTED_EDGE ( 'NONE', *, *, #193, .T. ) ;
#67 = FACE_OUTER_BOUND ( 'NONE', #214, .T. ) ;
#68 = AXIS2_PLACEMENT_3D ( 'NONE', #18, #82, #22 ) ;
#69 = EDGE_LOOP ( 'NONE', ( #180, #128, #66, #14 ) ) ;
#70 = ADVANCED_BREP_SHAPE_REPRESENTATION ( '500115_CNAJF00', ( #110, #68 ), #77 ) ;
#71 = FACE_OUTER_BOUND ( 'NONE', #46, .T. ) ;
#72 = CARTESIAN_POINT ( 'NONE',  ( 0.0000000000000000000, 13.00000000000000200, 1500.000000000000000 ) ) ;
#73 = CARTESIAN_POINT ( 'NONE',  ( 13.00000000000000200, 13.00000000000000200, 0.0000000000000000000 ) ) ;
#74 = CARTESIAN_POINT ( 'NONE',  ( 0.0000000000000000000, 0.0000000000000000000, 0.0000000000000000000 ) ) ;
#75 = DIRECTION ( 'NONE',  ( -1.000000000000000000, -0.0000000000000000000, 0.0000000000000000000 ) ) ;
#76 = DIRECTION ( 'NONE',  ( 0.0000000000000000000, 0.0000000000000000000, 1.000000000000000000 ) ) ;
#77 =( GEOMETRIC_REPRESENTATION_CONTEXT ( 3 ) GLOBAL_UNCERTAINTY_ASSIGNED_CONTEXT ( ( #34 ) ) GLOBAL_UNIT_ASSIGNED_CONTEXT ( ( #155, #20, #106 ) ) REPRESENTATION_CONTEXT ( 'NONE', 'WORKASPACE' ) );
#78 = FACE_OUTER_BOUND ( 'NONE', #63, .T. ) ;
#79 = ORIENTED_EDGE ( 'NONE', *, *, #193, .F. ) ;
#80 = APPLICATION_CONTEXT ( 'automotive_design' ) ;
#81 = CIRCLE ( 'NONE', #83, 4.000000000000000000 ) ;
#82 = DIRECTION ( 'NONE',  ( 0.0000000000000000000, 0.0000000000000000000, 1.000000000000000000 ) ) ;
#83 = AXIS2_PLACEMENT_3D ( 'NONE', #204, #120, #252 ) ;
#84 = CARTESIAN_POINT ( 'NONE',  ( 6.500000000000001800, 13.00000000000000200, 6.000000000000000000 ) ) ;
#85 = UNCERTAINTY_MEASURE_WITH_UNIT (LENGTH_MEASURE( 1.000000000000000100E-005 ), #270, 'distance_accuracy_value', 'NONE');
#86 = FACE_OUTER_BOUND ( 'NONE', #240, .T. ) ;
#87 = VECTOR ( 'NONE', #60, 1000.000000000000000 ) ;
#88 = EDGE_CURVE ( 'NONE', #158, #153, #48, .T. ) ;
#89 = DIRECTION ( 'NONE',  ( 0.0000000000000000000, -6.123233995736769700E-017, 1.000000000000000000 ) ) ;
#90 = DIRECTION ( 'NONE',  ( 1.000000000000000000, 0.0000000000000000000, 0.0000000000000000000 ) ) ;
#91 = CARTESIAN_POINT ( 'NONE',  ( 13.00000000000000200, 13.00000000000000200, 1500.000000000000000 ) ) ;
#92 = CARTESIAN_POINT ( 'NONE',  ( 6.500000000000000900, 13.00000000000000200, 10.00000000000000000 ) ) ;
#93 = ADVANCED_FACE ( 'NONE', ( #116, #187 ), #31, .F. ) ;
#94 = ORIENTED_EDGE ( 'NONE', *, *, #103, .F. ) ;
#95 = CARTESIAN_POINT ( 'NONE',  ( 0.0000000000000000000, 13.00000000000000200, 1500.000000000000000 ) ) ;
#96 = AXIS2_PLACEMENT_3D ( 'NONE', #92, #249, #151 ) ;
#97 = UNCERTAINTY_MEASURE_WITH_UNIT (LENGTH_MEASURE( 1.000000000000000100E-005 ), #169, 'distance_accuracy_value', 'NONE');
#98 = DIRECTION ( 'NONE',  ( -1.000000000000000000, 0.0000000000000000000, 0.0000000000000000000 ) ) ;
#99 = PRODUCT ( '500115_CNAJF00', '500115_CNAJF00', '', ( #44 ) ) ;
#100 = DIRECTION ( 'NONE',  ( 0.0000000000000000000, 1.000000000000000000, 6.123233995736769700E-017 ) ) ;
#101 = LINE ( 'NONE', #226, #149 ) ;
#102 =( NAMED_UNIT ( * ) SI_UNIT ( $, .STERADIAN. ) SOLID_ANGLE_UNIT ( ) );
#103 = EDGE_CURVE ( 'NONE', #173, #23, #262, .T. ) ;
#104 = APPLICATION_CONTEXT ( 'automotive_design' ) ;
#105 = VERTEX_POINT ( 'NONE', #13 ) ;
#106 =( NAMED_UNIT ( * ) SI_UNIT ( $, .STERADIAN. ) SOLID_ANGLE_UNIT ( ) );
#107 = AXIS2_PLACEMENT_3D ( 'NONE', #72, #90, #199 ) ;
#108 = ORIENTED_EDGE ( 'NONE', *, *, #223, .F. ) ;
#109 = ORIENTED_EDGE ( 'NONE', *, *, #243, .T. ) ;
#110 = MANIFOLD_SOLID_BREP ( 'Importiert1', #122 ) ;
#111 = ORIENTED_EDGE ( 'NONE', *, *, #209, .T. ) ;
#112 = CIRCLE ( 'NONE', #235, 4.000000000000000000 ) ;
#113 = PRODUCT_DEFINITION_FORMATION_WITH_SPECIFIED_SOURCE ( 'ANY', '', #99, .NOT_KNOWN. ) ;
#114 = ADVANCED_FACE ( 'NONE', ( #78 ), #236, .F. ) ;
#115 = DIRECTION ( 'NONE',  ( 0.0000000000000000000, -0.0000000000000000000, -1.000000000000000000 ) ) ;
#116 = FACE_OUTER_BOUND ( 'NONE', #271, .T. ) ;
#117 = EDGE_LOOP ( 'NONE', ( #94, #246, #245, #230 ) ) ;
#118 = CARTESIAN_POINT ( 'NONE',  ( 0.0000000000000000000, 0.0000000000000000000, 1500.000000000000000 ) ) ;
#119 = EDGE_LOOP ( 'NONE', ( #43, #111, #131, #49 ) ) ;
#120 = DIRECTION ( 'NONE',  ( 0.0000000000000000000, 1.000000000000000000, 6.123233995736769700E-017 ) ) ;
#121 = CARTESIAN_POINT ( 'NONE',  ( 13.00000000000000200, 0.0000000000000000000, 1500.000000000000000 ) ) ;
#122 = CLOSED_SHELL ( 'NONE', ( #144, #234, #196, #26, #133, #93, #53, #114 ) ) ;
#123 = EDGE_CURVE ( 'NONE', #23, #171, #200, .T. ) ;
#124 = ORIENTED_EDGE ( 'NONE', *, *, #172, .F. ) ;
#125 = SURFACE_STYLE_USAGE ( .BOTH. , #166 ) ;
#126 = CIRCLE ( 'NONE', #259, 4.000000000000000000 ) ;
#127 = FILL_AREA_STYLE ('',( #275 ) ) ;
#128 = ORIENTED_EDGE ( 'NONE', *, *, #88, .F. ) ;
#129 = AXIS2_PLACEMENT_3D ( 'NONE', #141, #215, #89 ) ;
#130 = DIRECTION ( 'NONE',  ( 0.0000000000000000000, 0.0000000000000000000, 1.000000000000000000 ) ) ;
#131 = ORIENTED_EDGE ( 'NONE', *, *, #165, .F. ) ;
#132 = PRODUCT_DEFINITION_SHAPE ( 'NONE', 'NONE',  #216 ) ;
#133 = ADVANCED_FACE ( 'NONE', ( #71 ), #58, .T. ) ;
#134 = ORIENTED_EDGE ( 'NONE', *, *, #15, .F. ) ;
#135 = ORIENTED_EDGE ( 'NONE', *, *, #165, .T. ) ;
#136 = VECTOR ( 'NONE', #266, 1000.000000000000000 ) ;
#137 = ORIENTED_EDGE ( 'NONE', *, *, #21, .F. ) ;
#138 = DIRECTION ( 'NONE',  ( 0.0000000000000000000, -1.000000000000000000, 0.0000000000000000000 ) ) ;
#139 = SHAPE_DEFINITION_REPRESENTATION ( #132, #70 ) ;
#140 = MECHANICAL_DESIGN_GEOMETRIC_PRESENTATION_REPRESENTATION (  '', ( #41 ), #57 ) ;
#141 = CARTESIAN_POINT ( 'NONE',  ( 6.500000000000000900, 0.0000000000000000000, 10.00000000000000000 ) ) ;
#142 = DIRECTION ( 'NONE',  ( 0.0000000000000000000, -0.0000000000000000000, 1.000000000000000000 ) ) ;
#143 = LINE ( 'NONE', #11, #136 ) ;
#144 = ADVANCED_FACE ( 'NONE', ( #86 ), #38, .F. ) ;
#145 = CARTESIAN_POINT ( 'NONE',  ( 0.0000000000000000000, 0.0000000000000000000, 1500.000000000000000 ) ) ;
#146 = CARTESIAN_POINT ( 'NONE',  ( 6.500000000000000900, 13.00000000000000200, 10.00000000000000000 ) ) ;
#147 = ORIENTED_EDGE ( 'NONE', *, *, #247, .T. ) ;
#148 = CARTESIAN_POINT ( 'NONE',  ( 0.0000000000000000000, 0.0000000000000000000, 0.0000000000000000000 ) ) ;
#149 = VECTOR ( 'NONE', #130, 1000.000000000000000 ) ;
#150 = LINE ( 'NONE', #148, #192 ) ;
#151 = DIRECTION ( 'NONE',  ( 0.0000000000000000000, 0.0000000000000000000, 1.000000000000000000 ) ) ;
#152 = SURFACE_STYLE_USAGE ( .BOTH. , #190 ) ;
#153 = VERTEX_POINT ( 'NONE', #17 ) ;
#154 = VECTOR ( 'NONE', #218, 1000.000000000000000 ) ;
#155 =( LENGTH_UNIT ( ) NAMED_UNIT ( * ) SI_UNIT ( .MILLI., .METRE. ) );
#156 = LINE ( 'NONE', #121, #175 ) ;
#157 = ORIENTED_EDGE ( 'NONE', *, *, #21, .T. ) ;
#158 = VERTEX_POINT ( 'NONE', #95 ) ;
#159 = DIRECTION ( 'NONE',  ( 1.000000000000000000, 0.0000000000000000000, -0.0000000000000000000 ) ) ;
#160 = VECTOR ( 'NONE', #159, 1000.000000000000000 ) ;
#161 = CARTESIAN_POINT ( 'NONE',  ( 13.00000000000000200, 13.00000000000000200, 1500.000000000000000 ) ) ;
#162 = DIRECTION ( 'NONE',  ( 0.0000000000000000000, 1.000000000000000000, 6.123233995736769700E-017 ) ) ;
#163 = CARTESIAN_POINT ( 'NONE',  ( 6.500000000000001800, 2.449293598294707900E-016, 6.000000000000000000 ) ) ;
#164 = ORIENTED_EDGE ( 'NONE', *, *, #237, .T. ) ;
#165 = EDGE_CURVE ( 'NONE', #229, #6, #150, .T. ) ;
#166 = SURFACE_SIDE_STYLE ('',( #3 ) ) ;
#167 = DIRECTION ( 'NONE',  ( 1.000000000000000000, 0.0000000000000000000, -0.0000000000000000000 ) ) ;
#168 = LINE ( 'NONE', #244, #87 ) ;
#169 =( LENGTH_UNIT ( ) NAMED_UNIT ( * ) SI_UNIT ( .MILLI., .METRE. ) );
#170 = ORIENTED_EDGE ( 'NONE', *, *, #261, .T. ) ;
#171 = VERTEX_POINT ( 'NONE', #221 ) ;
#172 = EDGE_CURVE ( 'NONE', #4, #105, #81, .T. ) ;
#173 = VERTEX_POINT ( 'NONE', #33 ) ;
#174 = AXIS2_PLACEMENT_3D ( 'NONE', #91, #138, #115 ) ;
#175 = VECTOR ( 'NONE', #228, 1000.000000000000000 ) ;
#176 = CARTESIAN_POINT ( 'NONE',  ( 13.00000000000000200, 13.00000000000000200, 1500.000000000000000 ) ) ;
#177 = FACE_OUTER_BOUND ( 'NONE', #119, .T. ) ;
#178 = PLANE ( 'NONE',  #107 ) ;
#179 = CARTESIAN_POINT ( 'NONE',  ( 0.0000000000000000000, 0.0000000000000000000, 0.0000000000000000000 ) ) ;
#180 = ORIENTED_EDGE ( 'NONE', *, *, #223, .T. ) ;
#181 = EDGE_CURVE ( 'NONE', #105, #4, #126, .T. ) ;
#182 = FILL_AREA_STYLE_COLOUR ( '', #24 ) ;
#183 = CIRCLE ( 'NONE', #129, 4.000000000000000000 ) ;
#184 = DIRECTION ( 'NONE',  ( 0.0000000000000000000, 0.0000000000000000000, 1.000000000000000000 ) ) ;
#185 = CARTESIAN_POINT ( 'NONE',  ( 0.0000000000000000000, 13.00000000000000200, 0.0000000000000000000 ) ) ;
#186 = STYLED_ITEM ( 'NONE', ( #207 ), #70 ) ;
#187 = FACE_BOUND ( 'NONE', #42, .T. ) ;
#188 = VECTOR ( 'NONE', #162, 1000.000000000000000 ) ;
#189 = DIRECTION ( 'NONE',  ( -0.0000000000000000000, -1.000000000000000000, -6.123233995736769700E-017 ) ) ;
#190 = SURFACE_SIDE_STYLE ('',( #45 ) ) ;
#191 = APPLICATION_PROTOCOL_DEFINITION ( 'draft international standard', 'automotive_design', 1998, #104 ) ;
#192 = VECTOR ( 'NONE', #222, 1000.000000000000000 ) ;
#193 = EDGE_CURVE ( 'NONE', #158, #171, #8, .T. ) ;
#194 = ORIENTED_EDGE ( 'NONE', *, *, #103, .T. ) ;
#195 = MECHANICAL_DESIGN_GEOMETRIC_PRESENTATION_REPRESENTATION (  '', ( #186 ), #47 ) ;
#196 = ADVANCED_FACE ( 'NONE', ( #177 ), #205, .F. ) ;
#197 = PLANE ( 'NONE',  #174 ) ;
#198 = CARTESIAN_POINT ( 'NONE',  ( 6.500000000000000900, 13.00000000000000200, 14.00000000000000000 ) ) ;
#199 = DIRECTION ( 'NONE',  ( 0.0000000000000000000, 0.0000000000000000000, -1.000000000000000000 ) ) ;
#200 = LINE ( 'NONE', #185, #241 ) ;
#201 = PRESENTATION_LAYER_ASSIGNMENT (  '', '', ( #41 ) ) ;
#202 = DIRECTION ( 'NONE',  ( 0.0000000000000000000, 1.000000000000000000, 6.123233995736769700E-017 ) ) ;
#203 = CARTESIAN_POINT ( 'NONE',  ( 0.0000000000000000000, 0.0000000000000000000, 0.0000000000000000000 ) ) ;
#204 = CARTESIAN_POINT ( 'NONE',  ( 6.500000000000000900, 13.00000000000000200, 10.00000000000000000 ) ) ;
#205 = PLANE ( 'NONE',  #12 ) ;
#206 = DIRECTION ( 'NONE',  ( 0.0000000000000000000, -6.123233995736769700E-017, 1.000000000000000000 ) ) ;
#207 = PRESENTATION_STYLE_ASSIGNMENT (( #152 ) ) ;
#208 = VECTOR ( 'NONE', #10, 1000.000000000000000 ) ;
#209 = EDGE_CURVE ( 'NONE', #23, #6, #143, .T. ) ;
#210 = ORIENTED_EDGE ( 'NONE', *, *, #247, .F. ) ;
#211 = FACE_OUTER_BOUND ( 'NONE', #117, .T. ) ;
#212 = AXIS2_PLACEMENT_3D ( 'NONE', #36, #98, #251 ) ;
#213 = CARTESIAN_POINT ( 'NONE',  ( 6.500000000000000900, 0.0000000000000000000, 10.00000000000000000 ) ) ;
#214 = EDGE_LOOP ( 'NONE', ( #79, #137, #194, #232 ) ) ;
#215 = DIRECTION ( 'NONE',  ( -0.0000000000000000000, -1.000000000000000000, -6.123233995736769700E-017 ) ) ;
#216 = PRODUCT_DEFINITION ( 'UNKNOWN', '', #113, #233 ) ;
#217 = VERTEX_POINT ( 'NONE', #163 ) ;
#218 = DIRECTION ( 'NONE',  ( 0.0000000000000000000, -1.000000000000000000, -0.0000000000000000000 ) ) ;
#219 = VECTOR ( 'NONE', #54, 1000.000000000000000 ) ;
#220 = CARTESIAN_POINT ( 'NONE',  ( 0.0000000000000000000, 0.0000000000000000000, 1500.000000000000000 ) ) ;
#221 = CARTESIAN_POINT ( 'NONE',  ( 0.0000000000000000000, 13.00000000000000200, 0.0000000000000000000 ) ) ;
#222 = DIRECTION ( 'NONE',  ( 1.000000000000000000, 0.0000000000000000000, -0.0000000000000000000 ) ) ;
#223 = EDGE_CURVE ( 'NONE', #229, #153, #168, .T. ) ;
#224 = PLANE ( 'NONE',  #212 ) ;
#225 = DIRECTION ( 'NONE',  ( 0.0000000000000000000, 0.0000000000000000000, 1.000000000000000000 ) ) ;
#226 = CARTESIAN_POINT ( 'NONE',  ( 13.00000000000000200, 0.0000000000000000000, 1500.000000000000000 ) ) ;
#227 = ORIENTED_EDGE ( 'NONE', *, *, #88, .T. ) ;
#228 = DIRECTION ( 'NONE',  ( 0.0000000000000000000, 1.000000000000000000, -0.0000000000000000000 ) ) ;
#229 = VERTEX_POINT ( 'NONE', #74 ) ;
#230 = ORIENTED_EDGE ( 'NONE', *, *, #209, .F. ) ;
#231 = DIRECTION ( 'NONE',  ( 0.0000000000000000000, 1.000000000000000000, 6.123233995736769700E-017 ) ) ;
#232 = ORIENTED_EDGE ( 'NONE', *, *, #123, .T. ) ;
#233 = PRODUCT_DEFINITION_CONTEXT ( 'detailed design', #80, 'design' ) ;
#234 = ADVANCED_FACE ( 'NONE', ( #211 ), #224, .F. ) ;
#235 = AXIS2_PLACEMENT_3D ( 'NONE', #213, #189, #206 ) ;
#236 = CYLINDRICAL_SURFACE ( 'NONE', #96, 4.000000000000000000 ) ;
#237 = EDGE_CURVE ( 'NONE', #217, #4, #52, .T. ) ;
#238 = LINE ( 'NONE', #198, #188 ) ;
#239 = DIRECTION ( 'NONE',  ( 0.0000000000000000000, -1.000000000000000000, -0.0000000000000000000 ) ) ;
#240 = EDGE_LOOP ( 'NONE', ( #147, #164, #254, #267 ) ) ;
#241 = VECTOR ( 'NONE', #75, 1000.000000000000000 ) ;
#242 = CARTESIAN_POINT ( 'NONE',  ( 6.500000000000001800, 13.00000000000000200, 6.000000000000000000 ) ) ;
#243 = EDGE_CURVE ( 'NONE', #255, #173, #156, .T. ) ;
#244 = CARTESIAN_POINT ( 'NONE',  ( 0.0000000000000000000, 0.0000000000000000000, 1500.000000000000000 ) ) ;
#245 = ORIENTED_EDGE ( 'NONE', *, *, #261, .F. ) ;
#246 = ORIENTED_EDGE ( 'NONE', *, *, #243, .F. ) ;
#247 = EDGE_CURVE ( 'NONE', #27, #217, #112, .T. ) ;
#248 =( NAMED_UNIT ( * ) SI_UNIT ( $, .STERADIAN. ) SOLID_ANGLE_UNIT ( ) );
#249 = DIRECTION ( 'NONE',  ( 0.0000000000000000000, 1.000000000000000000, 6.123233995736769700E-017 ) ) ;
#250 = FACE_OUTER_BOUND ( 'NONE', #69, .T. ) ;
#251 = DIRECTION ( 'NONE',  ( 0.0000000000000000000, 0.0000000000000000000, 1.000000000000000000 ) ) ;
#252 = DIRECTION ( 'NONE',  ( 0.0000000000000000000, 0.0000000000000000000, 1.000000000000000000 ) ) ;
#253 = APPLICATION_PROTOCOL_DEFINITION ( 'draft international standard', 'automotive_design', 1998, #80 ) ;
#254 = ORIENTED_EDGE ( 'NONE', *, *, #172, .T. ) ;
#255 = VERTEX_POINT ( 'NONE', #274 ) ;
#256 = AXIS2_PLACEMENT_3D ( 'NONE', #61, #202, #269 ) ;
#257 = LINE ( 'NONE', #179, #154 ) ;
#258 = LINE ( 'NONE', #30, #160 ) ;
#259 = AXIS2_PLACEMENT_3D ( 'NONE', #146, #100, #76 ) ;
#260 = ORIENTED_EDGE ( 'NONE', *, *, #5, .T. ) ;
#261 = EDGE_CURVE ( 'NONE', #6, #255, #101, .T. ) ;
#262 = LINE ( 'NONE', #161, #208 ) ;
#263 = PRESENTATION_STYLE_ASSIGNMENT (( #125 ) ) ;
#264 = AXIS2_PLACEMENT_3D ( 'NONE', #118, #265, #142 ) ;
#265 = DIRECTION ( 'NONE',  ( 0.0000000000000000000, 1.000000000000000000, 0.0000000000000000000 ) ) ;
#266 = DIRECTION ( 'NONE',  ( -0.0000000000000000000, -1.000000000000000000, 0.0000000000000000000 ) ) ;
#267 = ORIENTED_EDGE ( 'NONE', *, *, #1, .F. ) ;
#268 = DIRECTION ( 'NONE',  ( 0.0000000000000000000, -0.0000000000000000000, -1.000000000000000000 ) ) ;
#269 = DIRECTION ( 'NONE',  ( 0.0000000000000000000, 0.0000000000000000000, 1.000000000000000000 ) ) ;
#270 =( LENGTH_UNIT ( ) NAMED_UNIT ( * ) SI_UNIT ( .MILLI., .METRE. ) );
#271 = EDGE_LOOP ( 'NONE', ( #170, #56, #108, #135 ) ) ;
#272 = FILL_AREA_STYLE ('',( #182 ) ) ;
#273 = ORIENTED_EDGE ( 'NONE', *, *, #237, .F. ) ;
#274 = CARTESIAN_POINT ( 'NONE',  ( 13.00000000000000200, 0.0000000000000000000, 1500.000000000000000 ) ) ;
#275 = FILL_AREA_STYLE_COLOUR ( '', #7 ) ;
#276 = ORIENTED_EDGE ( 'NONE', *, *, #181, .F. ) ;
ENDSEC;
END-ISO-10303-21;
